Red Hot Chili Peppers – Scar Tissue Ukulele Chords (Tab)

Voice Range: GA (1 octave + 3 half tones) – how to use this?

 

   F               Dm               F               Dm
A|-----0--0-0-0-------------------|-----0--0-0-0-------------------|
E|-1-----1-1-1---0-0h1-1--1-1-1-0-|-1-----1-1-1-3-0-0h1-------3-3--|
C|-0-------------0-0h2---2-2-2----|-0---------------0h2--------5-5-|
G|-2------------------------------|-2------------------------------|
*Valid only in the key of F

 

FScar tissue that I wish you saw
DmSarcastic mister know it all
FClose your eyes and I’ll kiss you
‘Cause Dmwith the birds I’ll share…

 

FWith the birds I’ll share this Dmlonely view
FWith the birds I’ll share this Dmlonely view

 

FPush me up against the wall
DmYoung Kentucky girl in a push-up bra
FFallin’ all over myself
To Dmlick your heart and taste your health
‘Cause Fwith the birds I’ll share this Dmlonely view…

 

FWith the birds I’ll share this Dmlonely view
FWith the birds I’ll share this Dmlonely view

 

       Dm              Dm              C               Dm
A|-3---0---------------------------0-----------------0-0-------0-2-2-3-3-|
E|-------------------------------------3-----------3---------------------|
C|-----------------------------------------------------------------------|
G|-----------------------------------------------------------------------|
*Valid only in the key of F

 

FBlood loss in a bathroom stall
DmA southern girl with a scarlet drawl
FWave good-bye to ma and pa
‘Cause Dmwith the birds I’ll share…

 

FWith the birds I’ll share this Dmlonely view
FWith the birds I’ll share this Dmlonely view

 

FSoft spoken with a broken jaw
DmStep outside but not to brawl
FAutumn’s sweet we call it fall
I’ll Dmmake it to the moon if I have to crawl
And Fwith the birds I’ll share this Dmlonely view…

 

FWith the birds I’ll share this Dmlonely view
FWith the birds I’ll share this Dmlonely view

 

   Dm              Dm              C               Dm
A|-3/5---------5-3-0----------------------------------------------|
E|-------------------------------5\3-------------8\5--------------|
C|----------------------------------------------------------------|
G|----------------------------------------------------------------|

   Dm              Dm              C               Dm
A|-3/5--------5/7-3\0--------------------------------------5/7-7/8-8-|
E|-------------------------------8\3-------------8\5-----------------|
C|-------------------------------------------------------------------|
G|-------------------------------------------------------------------|
*Valid only in the key of F

 

FScar tissue that I wish you saw
DmSarcastic mister know it all
FClose your eyes and I’ll kiss you
‘Cause Dmwith the birds I’ll share…

 

FWith the birds I’ll share this Dmlonely view
FWith the birds I’ll share this Dmlonely view

 

      Dm              Dm              C               Dm
A|-10/12----------12\10---------10/12-7-----------7/8-5-----3-3/5-5\3-|
E|--------------------------------------------------------------------|
C|--------------------------------------------------------------------|
G|--------------------------------------------------------------------|

   Dm              Dm              C               Dm
A|-3/5-5-------5\3-0-------------------------------------------------|
E|-------------------------------8\3-------------8\5-----------------|
C|-----------------------------------------------------------2h4p2---|
G|-------------------------------------------------------------------|

   Dm              Dm              C               Dm
A|-0---0---0---0---0---0---0---------------------------------------|
E|-----------------------------------------------------------------|
C|---------------------------2/4-2-2/4-0-------0h2-----------------|
G|-------------------------------------------------2---------------|

   Dm              Dm              C               Dm
A|-0---0---0---0---8\7-7-----3-3/5-----------------------------------|
E|---------------------------------5------5/8-3----3/5---------------|
C|-------------------------------------------------------------------|
G|-------------------------------------------------------------------|