Red Hot Chili Peppers – I Could Have Lied Ukulele Chords

 

Voice Range: BD (1 Octave + 4 half tones) – how to use this?

 

Intro:

   Bm                      A        Gmaj7
   1  2  3  4  1  2  3  4  1  2  3  4  1  2  3  4
A|-------------------------0----------------------|
E|-------2-------2------2-------3---2-------------|
C|----2-------2------2--------------------2-------|
G|-2/4--4---4---4--4---4---2--------0-------0-----|

 

Verse:
BmThere must be something in the way I feel
That Ashe don’t Gmaj7want me to Bmfeel          A        Gmaj7
BmThe stare she bares cut me
AI don’t Gmaj7care
You see so what if I Bmbleed    A        Gmaj7

 

Hook:
I Bcould never change
Just Dwhat I feel
My Aadd9face will never show
GWhat is not real

 

Interlude:

   Bm                      A        Gmaj7
   1  2  3  4  1  2  3  4  1  2  3  4  1  2  3  4
A|-------------------------0----------------------|
E|-------2-------2------2-------3---2-------------|
C|----2-------2------2--------------------2-------|
G|-2/4--4---4---4--4---4---2--------0-------0-----|

 

Verse:
A Bmmountain never seems to have the need to speak
A Alook that Gmaj7shares so many Bmseek   A        Gmaj7
The Bmsweetest feeling I got from you
The Athings I Gsaid to you were Bmtrue      A        Gmaj7

 

Hook:
I Bcould never change
Just Dwhat I feel
My Aadd9face will never show
GWhat is not real

 

Interlude:

   Bm                      A        Gmaj7
   1  2  3  4  1  2  3  4  1  2  3  4  1  2  3  4
A|-------------------------0----------------------|
E|-------2-------2------2-------3---2-------------|
C|----2-------2------2--------------------2-------|
G|-2/4--4---4---4--4---4---2--------0-------0-----|

 

Chorus
I Emcould have lied I’m G*such a fool
My Deyes could never never Cnever keep their cool
EmShowed her and I G*told her how
She Dstruck me but I’m Cfucked up now

 

Solo x6:

   Bm                      A        Gmaj7
   1  2  3  4  1  2  3  4  1  2  3  4  1  2  3  4
A|-------------------------0----------------------|
E|-------2-------2------2-------3---2-------------|
C|----2-------2------2--------------------2-------|
G|-2/4--4---4---4--4---4---2--------0-------0-----|

 

Verse:
But Bmnow she’s gone yes she’s gone away
A Asoulful Gsong that would not Bmstay     A        Gmaj7
You Bmsee she hides ’cause she is scared
But AI don’t Gmaj7care, I won’t be Bmspared     A        Gmaj7

 

Chorus
I Emcould have lied I’m G*such a fool
My Deyes could never never Cnever keep their cool
EmShowed her and I G*told her how
She Dstruck me but I’m Cfucked up now

 

I Emcould have lied I’m G*such a fool
My Deyes could never never Cnever keep their cool
EmShowed her and I G*told her how
She Dstruck me but I’m Cfucked up now

 

Outro:
Em   G*   D   C    x3
Em