The Dead South – In Hell I’ll Be In Good Company Ukulele Chords

 

Voice Range: GA# (1 Octave + 4 half tones) – how to use this?

 

Whistling Intro: 

|Gm      |Gm     |Gm      |F       |
|Gm      |D#     |Gm  D   |Gm      |

 

Riff-1:

   Gm                                Gm
   1 & 2 & 3 & 4 & 5 & 6 & 7 & 8 & | 1 & 2 & 3 & 4 & 5 & 6 & 7 & 8 & |
A|-----10------10------10----------|-----10------10------10----------|
E|-------10------10------10--------|-------10------10------10--------|
C|-5/7-----5/7-----5/7-----10--9---|-5/7-----5/7-----5/7-----10--9---|
G|---------------------------------|---------------------------------|

   F               D                 Gm
   1 & 2 & 3 & 4 & 5 & 6 & 7 & 8 & | 1 & 2 & 3 & 4 & 5 & 6 & 7 & 8 & |
A|-----8-----8---------9-----9-----|-----10------10------10----------|
E|---8-----8-----8---10----10----10|-------10------10------10--------|
C|-9-----9-----9---9-----9-----9---|-5/7-----5/7-----5/7-----10--9---|
G|---------------------------------|---------------------------------|
*valid only in the key of Gm

 

Verse:
GmDead love couldn’t go no further
GmProud of and disgusted by her
GmPush shove, a little bruised and battered
FOh Lord I ain’t Dcoming home with Gmyou

 

GmMy life’s a bit more colder
GmDead wife is what I told her
GmBrass knife sinks into my shoulder
FOh babe don’t know Dwhat I’m gonna Gmdo

 

Riff-2:

   1 & 2 & 3 & 4 & 5 & 6 & 7 & 8 & | 1 & 2 & 3 & 4 & |
A|-5---3---5---6---5---3---1---0---|-----------------|
E|--6---6---6---6---6---6---3---2--|-3---0-1-3---0-2-|
C|---7---7---7---7---7---7---2---2-|---2-------2-----|
G|---------------------------------|-----------------|
*valid only in the key of Gm

 

Chorus:
I see my Gmred head, messed bed, tear shed, queen bee my squeeze
The stage it Gmsmells, tells, hell’s bells, miss-spells
Knocks me on my Fknees
It didn’t Gmhurt, flirt, blood squirt, stuffed shirt
Hang me on a D#tree
After I Gmcount down, three rounds, in Dhell I’ll be in good compaGmny

 

Riff-1:

   Gm                                Gm
   1 & 2 & 3 & 4 & 5 & 6 & 7 & 8 & | 1 & 2 & 3 & 4 & 5 & 6 & 7 & 8 & |
A|-----10------10------10----------|-----10------10------10----------|
E|-------10------10------10--------|-------10------10------10--------|
C|-5/7-----5/7-----5/7-----10--9---|-5/7-----5/7-----5/7-----10--9---|
G|---------------------------------|---------------------------------|

   F               D                 Gm
   1 & 2 & 3 & 4 & 5 & 6 & 7 & 8 & | 1 & 2 & 3 & 4 & 5 & 6 & 7 & 8 & |
A|-----8-----8---------9-----9-----|-----10------10------10----------|
E|---8-----8-----8---10----10----10|-------10------10------10--------|
C|-9-----9-----9---9-----9-----9---|-5/7-----5/7-----5/7-----10--9---|
G|---------------------------------|---------------------------------|
*valid only in the key of Gm

 

Verse:
GmDead love couldn’t go no further
GmProud of and disgusted by her
GmPush shove, a little bruised and battered
FOh Lord I ain’t Dcoming home with youGm

 

GmMy life’s a bit more colder
GmDead wife is what I told her
GmBrass knife sinks into my shoulder
FOh babe don’t know Dwhat I’m gonna doGm

 

Riff-2:

   1 & 2 & 3 & 4 & 5 & 6 & 7 & 8 & | 1 & 2 & 3 & 4 & |
A|-5---3---5---6---5---3---1---0---|-----------------|
E|--6---6---6---6---6---6---3---2--|-3---0-1-3---0-2-|
C|---7---7---7---7---7---7---2---2-|---2-------2-----|
G|---------------------------------|-----------------|
*valid only in the key of Gm

 

Chorus:
I see my Gmred head, messed bed, tear shed, queen bee my squeeze
The stage it Gmsmells, tells, hell’s bells, miss-spells
Knocks me on my Fknees
It didn’t Gmhurt, flirt, blood squirt, stuffed shirt
Hang me on a D#tree
After I Gmcount down, three rounds, in Dhell I’ll be in good compaGmny

 

Riff-1:

   Gm                                Gm
   1 & 2 & 3 & 4 & 5 & 6 & 7 & 8 & | 1 & 2 & 3 & 4 & 5 & 6 & 7 & 8 & |
A|-----10------10------10----------|-----10------10------10----------|
E|-------10------10------10--------|-------10------10------10--------|
C|-5/7-----5/7-----5/7-----10--9---|-5/7-----5/7-----5/7-----10--9---|
G|---------------------------------|---------------------------------|

   F               D                 Gm
   1 & 2 & 3 & 4 & 5 & 6 & 7 & 8 & | 1 & 2 & 3 & 4 & 5 & 6 & 7 & 8 & |
A|-----8-----8---------9-----9-----|-----10------10------10----------|
E|---8-----8-----8---10----10----10|-------10------10------10--------|
C|-9-----9-----9---9-----9-----9---|-5/7-----5/7-----5/7-----10--9---|
G|---------------------------------|---------------------------------|
*valid only in the key of Gm

 

Whistling Outro: 

|Gm      |Gm     |Gm      |F       |
|Gm      |D#     |Gm  D   |Gm      |