Sticky Fingers – Rum Rage Ukulele Chords

Voice Range: DF (1 octave + 4 half tones) – how to use this?

 

Intro:

   Dm                Am                A#                F
   1 & 2 & 3 & 4 & | 1 & 2 & 3 & 4 & | 1 & 2 & 3 & 4 & | 1 & 2 & 3 & 4 & |
A|-7h8--------7h8p7|-----------------|-----------------|-----------------|
E|-----------------|-8---8-----------|-8h10------8h10p8|-----------------|
C|-----------------|-----------------|-----------------|-9---9-----------|
G|-----------------|-----------------|-----------------|-----------------|
*valid only in the key of F

 

Verse:
It takes a Dmbeaten up animal to Amput em all away
A#Rushing me around and Fsending me astray
Don’t you Dmlie to me, as we Amfinally
Got a A#handle on the doors that we Fopen and shut

 

DmPacking up my suitcase, cause I’m Amgoing far away
I’m A#going to a place where the Fcredit cards
Don’t Dmdecline on me, yes we Amfinally
Got a A#handle on the doors that we Fopen and shut

 

   Dm                Am                A#                F
   1 & 2 & 3 & 4 & | 1 & 2 & 3 & 4 & | 1 & 2 & 3 & 4 & | 1 & 2 & 3 & 4 & |
A|-7h8--------7h8p7|-----------------|-----------------|-----------------|
E|-----------------|-8---8-----------|-8h10------8h10p8|-----------------|
C|-----------------|-----------------|-----------------|-9---9-----------|
G|-----------------|-----------------|-----------------|-----------------|
*valid only in the key of F

 

Chorus:
SGmhe    toCok   her   Amtime
TDmook my mGmind
But Cforget miAmne      Dm
GmMe in myC frame of Ammind
We Dmtook our Gmtime
BuCt she took Ammine     Dm

 

Interlude:

   Dm                Am                A#                F
   1 & 2 & 3 & 4 & | 1 & 2 & 3 & 4 & | 1 & 2 & 3 & 4 & | 1 & 2 & 3 & 4 & |
A|-7h8--------7h8p7|-----------------|-----------------|-----------------|
E|-----------------|-8---8-----------|-8h10------8h10p8|-----------------|
C|-----------------|-----------------|-----------------|-9---9-----------|
G|-----------------|-----------------|-----------------|-----------------|
*valid only in the key of F

 

Verse:
We’re rDmemotely secluded in this Amfar away place
A#Heading to a land where everFything is okay
Don’t think Dmsuddenly that Amyou and me
Got a A#handle on the doors that we Fopen and close

 

Can you Dmtake a little time ego Ambalance your ways
Cause A#everything we do and Fput it on display
Maybe Dmyou and me are a Amlittle the same
So A#what do you think of Fwhat we’ve made?

 

Chorus:
SGmhe    toCok   her   Amtime
TDmook my mGmind
But Cforget miAmne      Dm
GmMe in myC frame of Ammind
We Dmtook our Gmtime
BuCt she took Ammine     Dm

 

Outro:

   Dm                Am                A#                F
   1 & 2 & 3 & 4 & | 1 & 2 & 3 & 4 & | 1 & 2 & 3 & 4 & | 1 & 2 & 3 & 4 & |
A|-3h5--------3h5p3|-----------------|-----------------|-----------------|
E|-----------------|-5---5-----------|-5/6--------5h6p5|-----------------|
C|-----------------|-----------------|-----------------|-5---5-----------|
G|-----------------|-----------------|-----------------|-----------------|
*valid only in the key of F