Eddie Vedder – Satellite Ukulele Chords


Voice Range: DE (1 octave + 3 half tones) – how to use this

 

Intro: G7

A|-3------3-----2-----2-0-2--|--3-----3-----2-----2-0-2-|
E|---1------1-----1----------|----1-----1-----1---------|
C|-----2------2-----2--------|------2-----2-----2-------|
G|---------------------------|--------------------------|
*Valid only in the key of G

 

Verse:
DmIts no shame that
GLove’s a game that
Em7I can only play A7with you
DmWhat I’m saying
Gis I’m here waiting for Cyou      C7

 

Chorus:
GI’ve seen the light
GdimI’m satisfied that
Cmthe brightest star Gthat’s you
GSatellite I’m hoGdimlding tight
CmBeaming back to Gyou

 

Verse:
DmDays turn into
GNight turns into
Em7Days turn into toA7day
DmDon’t think I’m out playin
cause I’m insiGde waiting for Cyou        C7

 

Chorus:
GI’ve felt the light
GdimI’m satisfied that
Cmthe highest high iGs you
GSatellite I’m hoGdimlding tight
CmBeaming back to Gyou

 

Bridge:
DmDon’t you worry
FmI believe your story
CYou were put away
A7for something you didn’t do
DmBut I’m waiting
GI’ve been saving my love…

 

Outro: G7

A|-3------3-----2-----2-0-2--|--3-----3-----2-----2-0-2-|
E|---1------1-----1----------|----1-----1-----1---------|
C|-----2------2-----2--------|------2-----2-----2-------|
G|---------------------------|--------------------------|
*Valid only in the key of G