I See Fire Ukulele Chords

Ed Sheeran – I See Fire Ukulele Chords


Try other keys for easier chords.

  

Voice Range: G#A# (2 octaves + 3 half tones) – how to use this

 

Verse (Acapella):
Oh, misty eye of the mountain below
Keep careful watch of my brothers’ souls
And should the sky be filled with fire and smoke
Keep watching over Durin’s sons

 

Tab Intro:

A|-6--6h8-6--4-------6-6-6--4------6-8-6/4---------6-6-6---4----|
E|-------------4h6------------6-------------6-4-6------------6--|
C|--------------------------------------------------------------|
G|--------------------------------------------------------------|
*This is only valid in the key of A#

 

Verse:
If this is to A#mend in fC#ire
Then we should G#all burn toF#gether
Watch the A#mflames climb hC#igh intG#o the nighD#mt
Calling A#mout fathC#er oh staG#nd by and we F#will
Watch the D#mflames burn aFmuburn on
The mF#ountain side high

Tab Intro:

A|-6--6h8-6--4-------6-6-6--4------6-8-6/4---------6-6-6---4----|
E|-------------4h6------------6-------------6-4-6------------6--|
C|--------------------------------------------------------------|
G|--------------------------------------------------------------|
*This is only valid in the key of A#

 

Verse:
And if we should A#mdie toniC#ght
We should G#all die toF#gether
Raise a A#mglass of wC#ine fG#or the lasD#mt time
Calling A#mout fatC#her oh
PreG#pare as we F#will
Watch the D#mflames burn aFmuburn on
The mF#ountain side
DesolD#mation cFmomes upon the sF#ky

 

Chorus:
Now I see A#mfire    F#
IG#nside the moA#muntain
I see fA#mire    F#
BuG#rning the treA#mes
And I see A#mfire    F#
HoG#llowing souA#mls
I see A#mfire    F#
BloG#od in the breezD#me
And i hope that you’ll remember me

 

Tab Intro    x2:

 A|-6--6h8-6--4-------6-6-6--4------6-8-6/4---------6-6-6---4----|
 E|-------------4h6------------6-------------6-4-6------------6--|
 C|--------------------------------------------------------------|
 G|--------------------------------------------------------------|
 *This is only valid in the key of A#

 

Verse:
Oh, should my A#mpeople fC#all then
Surely G#I’ll do the saF#me
Confined in A#mmountain hC#alls
We got too G#close to the fD#mlame
Calling A#mout fathC#er oh
HolG#d fast and we F#will
Watch the fD#mlames burn aFmuburn on
The F#mountain side
DesD#molation coFmmes upon the sF#ky

 

Chorus:
Now I see A#mfire    F#
IG#nside the moA#muntain
I see fA#mire    F#
BuG#rning the treA#mes
And I see A#mfire    F#
HoG#llowing souA#mls
I see A#mfire    F#
BloG#od in the breezD#me
And i hope that you’ll remember me

 

Bridge:
And if the A#mnight is buC#rning
I will G#cover my eF#yes
For if the A#mdark retuC#rns then
My G#brothers will dD#mie
And as the A#msky is falling C#down
It crashed iG#nto this lonely tF#own
And with that sD#mhadow upon the ground
I Fmhear my F#people screaming G#out

 

Chorus:
Now I see A#mfire    F#
IG#nside the moA#muntain
I see fA#mire    F#
BuG#rning the treA#mes
I see A#mfire    F#
HoG#llowing souA#mls
I see A#mfire    F#
BG#lood in the breeA#mze

 

I see A#mfire (fire)
Oh, you F#know I saw a city burG#ning out
And I see A#mfire (fire)
Feel tF#he heat upon my sG#kin     A#m
And I see fA#mire (fire)
F#Uhhhhhhhhh    G#        A#m
And I see A#mfire
Burn F#auburn on the moG#untain sidA#me