Childish Gambino – Redbone Ukulele Chords

     

Voice Range: D#F# (1 octave + 4 half tones) – how to use this?

 

If you want to play along with the original you should tune your ukulele a little bit sharper ( # )

Intro:

1 & 2 & 3 & 4 & 1 & 2 & 3 & 4 & 1 & 2 & 3 & 4 & 1 & 2 & 3 & 4 & 
   A#maj7  C     Dm                A#maj7  C     Dm
A|---0-----3-----0---------------3-0-------3-----0-----------------|
E|-1---3-1-0-----1-------------1---1-------0-1-3-1-----------------|
C|-2-------0-0---2---------0h2-----2-------0-----2-----------------|
G|-3-------0---2-2-----------------3-------0-----2-----------------|

   1 & 2 & 3 & 4 & 1 & 2 & 3 & 4 & 1 & 2 & 3 & 4 & 1 & 2 & 3 & 4 & 
   A#maj7  C     Dm                A#maj7  C     Dm
A|---0-----3-----0---------------3-0-------3-----0-----------------|
E|-1---3-1-0-----1-------------1---1-------0-3-1-1-----------------|
C|-2-------0-0---2---------0h2-----2-------0-----2-----------------|
G|-3-------0---2-2-----------------3-------0-----2-----------------|

 

Verse:
A#maj7Daylight,     C        I Dmwake up feeling like you won’t
A#maj7Play right    C        I Dmused to know but now, that shit don’t
A#maj7Feel right    C        It Dmmade me put away
My prA#maj7ide               C          Dm
A#maj7So long,       C        You Dmmade a nigga wait for some
A#maj7So long        C        You Dmmake it hard for a boy like that to
A#maj7Go on           C        I’m Dmwishing I could make
This A#maj7mine,          Coh    Dm

 

Pre-Chorus:
If you Dmwant it, yeah, you can Gmhave it, oh, oh, oh
FIf you Edimneed it, ooh
A7#9We can            Dmmake it, oh
If you Gmwant it
FYou can Edimhave it     A7#9

 

Chorus:
But stay A#maj7woke,          C      niggas Dmcreepin’
They gon’ A#maj7find you      C      gon’ catch you Dmsleepin’
Ooh, now stay woA#maj7ke                C      niggas Dmcreepin’
Now don’t you A#maj7close your Ceyes       Dm

 

Verse:
A#maj7Too late      C       You wDmanna make it right, but now it’s
A#maj7Too late      C       My Dmpeanut butter chocolate cake
With A#maj7Kool-Aid        C     I’m Dmtrying not to waste
My tA#maj7ime               C        Dm

 

Pre-Chorus:
If you A#maj7want it,      Coh,    You can Dmhave it
If you A#maj7need it       C         We can Dmmake it
If you A#maj7want it      C          You can Dmhave it,
Aaah!Edim

 

Chorus x2:
But stay A#maj7woke,          C      niggas Dmcreepin’
They gon’ A#maj7find you    C      gon’ catch you Dmsleepin’
Ooh, now stay woA#maj7ke               C      niggas Dmcreepin’
Now don’t you A#maj7close your eyes

 

Outro:
Dm,     Gm – F,      Edim – A7#9   x2

 

   1 & 2 & 3 & 4 & 1 & 2 & 3 & 4 & 1 & 2 & 3 & 4 & 
   D             Gm             F  Edim    C   A7#9
A|-5-------0-1-3-1--------12-10-8--10------7-5-3---|
E|-2-------2-----3--------10----5--0-------0---0---|
C|-2-------2-----2--------10----5--10------0---1---|
G|-2-------2-----0---------0----5--0-------0---0---|