Boy Pablo – Sick Feeling Ukulele Chords

Voice Range: EB (1 octave + 8 half tones) – how to use this?

 

Intro:

   Amaj7     Cdim7     C#m7      Bm7 E7    Amaj7     F#m7
   1 2 3 4 | 1 2 3 4 | 1 2 3 4 | 1 2 3 4 | 1 2 3 4 | 1 2 3 4 |
A|-0---2-4-|-6---7-9-|-2-------|-4-2-0---|---------|---------|
E|---------|---------|-------4-|-------4-|-------2-|-2-------|
C|---------|---------|---------|---------|-4-------|---------|
G|---------|---------|---------|---------|--------1|---------|
*valid only in the key of E

 

Verse:
Emaj7I had to catch the Amaj7bus
Alarm was shaking, F#m7oh
Almost F#7sus2landed on the floor
Emaj7So ready for you tFdim7hen
To leave was a F#m9mistake
What F#m7b5was I waiting for?

 

Chorus:
What a Amaj7sick, sick feeling
Cdim7To let you go, my C#m7dear
‘Cause I was Bm7not prepaE7red to
Amaj7Let you go, lF#m9et you go

 

Interlude:

   Emaj7
   1 & 2 & 3 & 4 & | 1 & 2 & 3 & 4 & |
A|---4/6-4---------|-----------------|
E|---------7-5-----|-4-7-4-----------|
C|-------------4-6-|-----------------|
G|-----------------|-----------------|
*valid only in the key of E

 

Verse:
Amaj7I used to turn you G#mon
I used to be by F#7sus2your side
And now the F#m7rest is leaving me behind

 

Amaj7I miss the way you sound
I B13miss to be around you
F#m9Just let me have anEmaj7other chance

 

Chorus:
What a Amaj7sick, sick feeling
Cdim7To let you go, my C#m7dear
‘Cause I was Bm7not prepaE7red to
Amaj7Let you go, lF#m7b5et you go

 

Solo:

   Amaj7     Cdim7     C#m7      Bm7 E7
   1 2 3 4 | 1 2 3 4 | 1 2 3 4 | 1 2 3 4 |
A|-0---2-4-|-6---7-9-|-2-------|-4-2-0---|
E|---------|---------|-------4-|-------4-|
C|---------|---------|---------|---------|
G|---------|---------|---------|---------|
   Amaj7     Cdim7     C#m7      Bm7 E7    Amaj7     F#m7
   1 2 3 4 | 1 2 3 4 | 1 2 3 4 | 1 2 3 4 | 1 2 3 4 | 1 2 3 4 |
A|-0---2-4-|-6---7-9-|-2-------|-4-2-0---|---------|---------|
E|---------|---------|-------4-|-------4-|-------2-|-2-------|
C|---------|---------|---------|---------|-4-------|---------|
G|---------|---------|---------|---------|--------1|---------|
*valid only in the key of E

 

Outro:
What a Amaj7sick, sick feelinG#mg
To let you go, my C#m7dear
‘Cause I was Bm7not prepE7ared to
Amaj7Let you go