Troye Sivan – The Good Side Ukulele Chords

Voice Range: BD (1 octave + 3 half tones) – how to use this?

 

Verse:
DI got the good side of things
F#mLeft you with both of the rings
Gmaj7My fingers danced and swayed in the breeze
AThe change in the wind took you down to your knees
DI got the good side of you
F#mSend it out into the blue
Gmaj7The people danced to the sound of your heart
AThe world sang along to it falling apart

 

Chorus:
But I Dsympathize
And IF#m recognize
And baby, I aGmaj7pologize
That I got the Agood side, the good side of Dthings

 

Interlude:

   D                           F#
A|----0------0------0------0---2p0----2p0----2p0----2p0--|
E|-2h3----2h3----2h3----2h3-------2------2------2------2-|
C|-------2-------------2-------------2-------------2-----|
G|-------------------------------------------------------|

   Gmaj7                       A
A|----0------0------0------0---2p0----2p0----2p0----2p0--|
E|-2h3----2h3----2h3----2h3-------2------2------2------2-|
C|-------2-------------2-------------2-------------2-----|
G|-------------------------------------------------------|
*valid only in the key of D

 

Verse:
DI got the good side of life
F#mTravelled the universe twice
Gmaj7So many thoughts I wanted to share
ABut I didn’t call because it wouldn’t be fair
ThenD I got the good side of new
F#mFound arms to fall right into
I Gmaj7know how it looked, it wasn’t the plan
And Asome day I hope that you’ll understand

 

Chorus:
That I Dsympathize
And I F#mrecognize
And baby, I aGmaj7pologize
That I got the Agood side, the good side of Dthings

 

Interlude:

   D                           F#
A|----0------0------0------0---2p0----2p0----2p0----2p0--|
E|-2h3----2h3----2h3----2h3-------2------2------2------2-|
C|-------2-------------2-------------2-------------2-----|
G|-------------------------------------------------------|

   Gmaj7                       A
A|----0------0------0------0---2p0----2p0----2p0----2p0--|
E|-2h3----2h3----2h3----2h3-------2------2------2------2-|
C|-------2-------------2-------------2-------------2-----|
G|-------------------------------------------------------|
*valid only in the key of D

 

Verse:
DI’m sure we’ll meet in the spring
And F#mcatch up on everything
I’ll Gmaj7say I’m proud of all that you’ve done
You Dtaught me the ropes, and you taught me to love

 

Outro:
But I Dsympathize
And I F#mrecognize
And baby, I aGmaj7pologize
That I got the Agood side, the good side of Dthings
Sympathize, F#mrecognize, aGmaj7pologize
That I got the Agood side, the good side of Dthings