The White Stripes – Seven Nation Army Ukulele Chrods


   

Voice Range: DB (10 half tones) – how to use this

 

This is the main part:

    Em            C    B      Em            C         B
A|--2-------------3----2---|--2-------------3---------2--|
E|--3-----3-------0----2---|--3-----3-------0---------2--|
C|--4---4---4-2---0----3---|--4---4---4-2---0--2--0---3--|
G|--0-------------0----4---|--0-------------0---------4--|
*this is only valid in the key of Em

 

Verse:
I’m gonna Emfight ’em off       C        B
A seven nation Emarmy couldn’t hold me baCck       B
They’re gonna Emrip it off       C        B
Taking their Emtime right behind my baCck       B
And I’m taEmlkin’ to myself at nigCht
Because I cBan’t forgEmet       C        B
EmBack and forth through my mCind
Behind a Bcigarette Em          C        B

 

Post-Verse:
And the Gmessage comin’ from my Ameyes says, “Leave it aEmlone.”

 

Interlude:

    Em            C    B      Em            C         B
A|--2-------------3----2---|--2-------------3---------2--|
E|--3-----3-------0----2---|--3-----3-------0---------2--|
C|--4---4---4-2---0----3---|--4---4---4-2---0--2--0---3--|
G|--0-------------0----4---|--0-------------0---------4--|
*this is only valid in the key of Em

G    Am

 

Verse:
Don’t wanna Emhear about it     C         B
Every single Emone’s got a story to tCell        B
Everyone kEmnows about it       C        B
From the Queen of EmEngland to the hounds of hCell         B
And if I Emcatch it comin’ back my waCy
I’m gonna sBerve it to yoEmu        C        B
And that Emain’t what you want to hCear
But that’s Bwhat I’ll Emdo       C        B

 

Post-Verse:
And the Gfeeling coming from my Ambones says, “Find a hoEmme.”

 

Interlude:

    Em            C    B      Em            C         B
A|--2-------------3----2---|--2-------------3---------2--|
E|--3-----3-------0----2---|--3-----3-------0---------2--|
C|--4---4---4-2---0----3---|--4---4---4-2---0--2--0---3--|
G|--0-------------0----4---|--0-------------0---------4--|
*this is only valid in the key of Em

G    Am

 

Verse:
I’m going to EmWichita      C        B
Far from this Emopera for everCmore       B
I’m gonna Emwork the straw   C        B
Make the Emsweat drip out of every Cpore        B
And I’m Embleeding, and I’m bleeding, and I’m blCeeding
Right bBefore the lorEmd        C        B
EmAll the words are gonna bleed from Cme
And I will Bthink no Emmore       C        B

 

Post-Verse:
And the Gstains comin’ from my bloAmod tell me, “Go back hEmome.”

 

Interlude:

    Em            C    B      Em            C         B
A|--2-------------3----2---|--2-------------3---------2--|
E|--3-----3-------0----2---|--3-----3-------0---------2--|
C|--4---4---4-2---0----3---|--4---4---4-2---0--2--0---3--|
G|--0-------------0----4---|--0-------------0---------4--|
*this is only valid in the key of Em