The Cure – Close To Me Ukulele Chords

Voice Range: G#F# (11 half tones) – how to use this?

 

Intro:

   B         B         G#m       F#
A|-9-7-6---|-9-7-6---|-14-13---|-13------|
E|------7--|------7--|------14-|---14----|
C|---------|---------|---------|-----13--|
G|---------|---------|---------|---------|
*valid only in the key of B

 

Verse:
BI’ve waited hours for this
BI’ve made myself so sick
I wG#mish I’d stayed aF#sleep today
BI never thought that this day would end
BI never thought that tonight could eG#Mver be
This F#close to me

 

Interlude:

   B         B         G#m       F#
A|-9-7-6---|-9-7-6---|-14-13---|-13------|
E|------7--|------7--|------14-|---14----|
C|---------|---------|---------|-----13--|
G|---------|---------|---------|---------|
*valid only in the key of B

 

Verse:
BJust try to see in the dark
BJust try to make it work
To G#mfeel the fear beF#fore you’re here
BI make the shapes come much too close
BI pull my eyes out
Hold my G#mbreath
And wait unF#til I shake

 

Chorus:
EBut if I had your faith
EThen I could make it safe and Bclean       B
EIf only I was sure
EThat my head on the door was a Bdream       B

 

Interlude:

   B         B         G#m       F#

 

Verse:
BI’ve waited hours for this
BI’ve made myself so sick
I G#mwish I’d stayed aF#sleep today
BI never thought that this day would end
BI never thought that tonight could eG#mver be
This F#close to me

 

Chorus:
EBut if I had your face
EI could make it safe and Bclean        B
EIf only I was sure
EThat my head on the door
Was a Bdream       B

 

Outro:

   B         B         G#m       F#