The Beatles – In My Life Ukulele Chords (TAB)

       

Voice Range: EE (1 octave + 1 half tone) – how to use this?

Important: If you transpose the song the tabs won’t be accurate, but the chords above the tabs will transpose too.

 

Intro x2:

  A           E
A---0-------------
E----------0--4---
C-1----1-2--------
G-----------------

 

Verse:
EThere are Aplaces EI’ll reF#mmember  A7
All my Dlife  Dm, though Asome have changed
Some foArever notE for F#mbetter  A7
Some haveD gone,Dm and Asome remain
All these F#mplaces have their Bmmoments
With Glovers and friends I Astill can recall
Some are F#mdead and some are B7living
In Dmy  Dmlife I’ve Aloved them all

 

  A           E
A---0-------------
E----------0--4---
C-1----1-2--------
G-----------------

 

EBut of Aall these Efriends and F#mlovers A7
There is Dno   Dmone comApares with you
And these Amemories Elose their F#mmeaning   A7
When I Dthink of Dmlove as Asomething new
Though I F#mknow I’ll never lose Bmaffection
For Gpeople and things that Awent before
I F#mknow I’ll often stop and think aB7bout them
In Dmy    Dmlife I Alove you more

 

Solo:

  A         E         F#m   A7             D             Dm        A             
A-0-2-3--0--7---------------4--5--7--10----9-7-9-5-9---9---8-5-----7-5-7-4-7---7---7-4---
E-------------7---7---2-4-5--------------------------9---7-----7-------------7---5-----7-
C---------------6------------------------------------------------------------------------
G----------------------------------------------------------------------------------------

  A         E         F#m   A7             D             Dm        A             
A-0-2-3--0--7---------------4--5--7--10----9-7-9-5-9---9---8-5-----7-4-5-7-4---------
E-------------7---7---2-4-5--------------------------9---7-----7-------------5-0-4-5-
C---------------6--------------------------------------------------------------------
G------------------------------------------------------------------------------------

 

Though I F#mknow I’ll never lose Bmaffection
For Gpeople and things that Awent before
I F#mknow I’ll often stop and think aB7bout them
In Dmy    Dmlife I Alove you more
In Dmy    Dmlife I Alove you more

 

  A           E            A
A---0----------------------0--
E----------0--4---4--2--4-----
C-1----1-2--------------------
G-----------------------------