Rolling Stones – Mother’s Little Helper Ukulele Chords

Voice Range: EF (1 Octave + 2 half tones) – how to use this?

 

Intro:
AmWhat a Cdrag itD is getting Emold

 

   Em
   1 & 2 & 3 & 4 & | 1 & 2 & 3 & 4 & |
A|-2---------------|-2---------------|
E|-2---3---5-------|-3---2---3-------|
C|-4---------------|-4---------------|
G|-0---------------|-0---------------|
*valid only in the key of G

 

Verse:
“KEmids are different today,”
I hEmear every mother say
Mother needs something today to calm her dFown   D
And though Gshe’s not really ill
There’s a Clittle yeEmllow pAmill

 

Break:
She goes Amrunning for the shelter of a D7mother’s little helper
And it Emhelps her on her way, gets her through her busy day

 

   Em
   1 & 2 & 3 & 4 & | 1 & 2 & 3 & 4 & |
A|-2---------------|-2---------------|
E|-2---3---5-------|-3---2---3-------|
C|-4---------------|-4---------------|
G|-0---------------|-0---------------|

 

Verse:
“TEmhings are different today,”
I hear eEmvery mother say
Cooking fresh food for a husband’s just a Fdrag   D
So she bGuys an instant cake and she Cburns her Emfrozen stAmeak

 

Break:
And goes Amrunning for the shelter of a D7mother’s little helper
And two Emhelp her on her way, get her through her busy day

 

   Em
   1 & 2 & 3 & 4 & | 1 & 2 & 3 & 4 & |
A|-2---------------|-2---------------|
E|-2---3---5-------|-3---2---3-------|
C|-4---------------|-4---------------|
G|-0---------------|-0---------------|

 

Chorus:
EmDoctor plCease, some more of tDhese
Outside the dGoor, she took four mCore
AmWhat a dCrag it iDs getting Emold

 

   Em
   1 & 2 & 3 & 4 & | 1 & 2 & 3 & 4 & |
A|-2---------------|-2---------------|
E|-2---3---5-------|-3---2---3-------|
C|-4---------------|-4---------------|
G|-0---------------|-0---------------|

 

Verse:
EmMen just aren’t the same today”
I Emhear every mother say
They just don’t appreciate that you get Ftired    D
They’re so hGard to satisfy, You can CtranquilEmize your Ammind

 

Break:
So go Amrunning for the shelter of a D7mother’s little helper
And four Emhelp you through the night, help to minimize your plight

 

   Em
   1 & 2 & 3 & 4 & | 1 & 2 & 3 & 4 & |
A|-2---------------|-2---------------|
E|-2---3---5-------|-3---2---3-------|
C|-4---------------|-4---------------|
G|-0---------------|-0---------------|

 

Chorus:
EmDoctor plCease, some more of tDhese
Outside the dGoor, she took four mCore
AmWhat a dCrag it iDs getting Emold

 

   Em
   1 & 2 & 3 & 4 & | 1 & 2 & 3 & 4 & |
A|-2---------------|-2---------------|
E|-2---3---5-------|-3---2---3-------|
C|-4---------------|-4---------------|
G|-0---------------|-0---------------|

 

Verse:
EmLife’s just much too hard today,”
I hear Emevery mother say
The pusuit of happiness just seems a Fbore     D
And if yGou take more of those, you will Cget an EmoverdosAme

 

Break:
No more rAmunning for the shelter of a mD7other’s little helper
They just hEmelped you on your way, through your busy dying day

 

   Em
   1 & 2 & 3 & 4 & | 1 & 2 & 3 & 4 & |
A|-2---------------|-2---------------|
E|-2---3---5-------|-3---2---3-------|
C|-4---------------|-4---------------|
G|-0---------------|-0---------------|

 

Outro:
G        C        G        G  HEY!