Radiohead – No Surprises Ukulele Chords + Tabs

The original is in the key of F

 

Voice Range: A#C (1 octave + 3 half tones) – how to use this?

 

   1 & 2 & 3 & 4 & 1 & 2 & 3 & 4 &
   G                       Cm
A|-2-------2-------2-------------0-|
E|-----3-------3-------3-------3---|
C|---2---2---2---2---2---2-0-3-----|    x4
G|---------------------------------|
*valid only in the key of G

 

Verse:
A Gheart that’s full up like a Emlandfill
A job that slowly Amkills you
DBruises that won’t Gheal      Cm

 

GYou look so tired, unhappy
EmBring down the government
AmThey don’t, Dthey don’t speak for Gus     Cm

 

Chorus:
GI’ll take a quiet life
A Emhandshake of carbon monoxide
AmNo alarms and Dno surprises
AmNo alarms and Dno surprises
AmNo alarms and Dno surprises
GSilent     Cm
GSilent     Cm

 

Chorus 2:
GThis is my final fit, my Emfinal bellyache with
AmNo alarms and Dno surprises
AmNo alarms and Dno surprises
AmNo alarms and Dno surprises
GPlease….   Cm

 

Instrumental:

   1 & 2 & 3 & 4 & 1 & 2 & 3 & 4 & 
   D               Cm
A|-0-------0---0---------0-1-0-----|
E|-2-------3---2-------3-------3---|
C|-2-------2---2---0-3-----------3-|    x2
G|-2-------2---2-------------------|

 

   1 & 2 & 3 & 4 & 1 & 2 & 3 & 4 & 
   Am              Cm
A|-0-------0---0---3---3---3---3---|
E|-0-------3---0---3---3---3---5---|
C|-0-------0---0---3---5---7---7---|
G|-2-------2---2---0---0---0---0---|

 

Chorus:
GSuch a pretty house, and Emsuch a pretty garden
AmNo alarms and Dno surprises (let me out of here)
AmNo alarms and Dno surprises (let me out of here)
AmNo alarms and Dno surprises
GPlease     Cm

 

Outro:

   1 & 2 & 3 & 4 & 1 & 2 & 3 & 4 &
   G                       Cm   G
A|-2-------2-------2-------------0-2-|
E|-----3-------3-------3-------3---3-|
C|---2---2---2---2---2---2-0-3-----2-|
G|---------------------------------0-|
*valid only in the key of G