Queen – Crazy Little Thing Called Love Ukulele Chords

 

Voice Range: DA (1 Octave + 8 half tones) – how to use this?

 

Intro x4:

1    &    2    &    3    &    4    &  |
D    U    D    U         U    D    U
D         Dsus D

 

Verse:
This Dthing called Dlove, I jGust can’t Chandle Git
This Dthing called lDove, I Gmust get roCund to Git
I ain’t Dready – A#Crazy little Cthing called Dlove      SStop

 

This Dthing called Dlove, It Gcries in a Ccradle all Gnight
It sDwings, It jDives, It sGhakes all over like a Cjelly fiGsh
I kinda Dlike it – A#Crazy little Cthing called Dlove      SStop

 

Bridge:
There goes my Gbaby, she Cknows how to rock ‘n’ rGoll
She drives me A#crazy, she gives me Ehot and cold Afever
Then she leFaves me in a cool cool sweat

 

   1 & 2 & 3 & 4 & 1 & 2 & 3 & 4 & |
A|----5--4-3-----------------------|
E|--------------------5--4-3-------|
C|---------------------------------|
G|---------------------------------|

   1 & 2 & 3 & 4 & 1 & 2 & 3 & 4 & |
A|-2--2-2--2--2-2--0-0-------------|
E|-4--4-4--4--4-4--0---3-3-2-2-0-0-|
C|-4--4-4--4--4-4--1---------------|
G|-4--4-4--4--4-4--2---------------|

 

Verse:
I gotta be Dcool, reDlax, get Ghip, and get Con my Gtrack’s
Take a Dback seat, hitch-Dhike
And Gtake a long ride on my CmotorbGike
Until I’m Dready – A#Crazy little Cthing called Dlove      SStop

 

Solo:
A#       A#       D       D
A#       A#     EA    F

 

   1 & 2 & 3 & 4 & 1 & 2 & 3 & 4 & |
A|----5--4-3-----------------------|
E|--------------------5--4-3-------|
C|---------------------------------|
G|---------------------------------|

   1 & 2 & 3 & 4 & 1 & 2 & 3 & 4 & |
A|-2--2-2--2--2-2--0---------------|
E|-4--4-4--4--2-4--0---------------|
C|-4--4-4--4--4-4--1---------------|
G|-4--4-4--4--4-4--2---------------|

 

No Chord Verse:
NN.C.I gotta be cool, relax, get hip, and get on my track’s
Take a NN.C.back seat (ah hum), hitch-hike (ah hum)
And NN.C.take a long ride on my motorbike
Until I’m NN.C.ready (ready Freddie)
NN.C.Crazy little thing called love

 

Verse:
This Dthing called Dlove, I jGust can’t Chandle Git
This Dthing called lDove, I Gmust get roCund to Git
I ain’t Dready – A#Crazy little Cthing called Dlove      D

 

Outro:   /repeat and fade/:
A#Crazy little Cthing called Dlove
A#Crazy little Cthing called Dlove