Phil Collins – Another Day In Paradise Ukulele Chords

Voice Range: FF (1 octave + 1 half tone) – how to use this?

 

Intro x2:

   1 2 3 4 5 6 7 8 | 1 2 3 4 5 6 7 8 | 1 2 3 4 5 6 7 8 | 1 2 3 4 5 6 7 8 |
   Fm                D#      A#m       Fm                D#      A#m
A|-3---------------|-1-------1-------|-3---------------|-1-------1-------|
E|-1---------------|-3-1-----1-------|-1---------------|-3-1-------------|
C|-0---------------|-3---3-----------|-0---------------|-3---3---1-------|
G|-1-----1-3---1---|-0-------3-------|-1-----1-3---1---|-0-------3-------|
*valid only in the key of Fm

 

Verse:
FmShe calls out to the maD#n on the streA#met
Fm“Sir, can you D#help me?
FmIt’s cold and I’ve nD#owhere to sA#mleep
FmIs there somewhere you can D#tell me?”

 

FmHe walks on, D#doesn’t look bA#mack
FmHe pretends he can’t D#hear her
FmStarts to whistle as he D#crosses the A#mstreet
FmSeems embarrassed to D#be there

 

Chorus:
FmOh think twD#add9ice, cause it’s anC#maj7other day for
You and me in pD#add9aradise
FmOh think twD#add9ice, cause it’s aC#maj7nother day for you
D#add9You   and   Fmme in D#pa – C#maj7ra – dise   Fm

 

Interlude x2:

   1 2 3 4 5 6 7 8 | 1 2 3 4 5 6 7 8 | 1 2 3 4 5 6 7 8 | 1 2 3 4 5 6 7 8 |
   Fm                D#      A#m       Fm                D#      A#m
A|-3---------------|-1-------1-------|-3---------------|-1-------1-------|
E|-1---------------|-3-1-----1-------|-1---------------|-3-1-------------|
C|-0---------------|-3---3-----------|-0---------------|-3---3---1-------|
G|-1-----1-3---1---|-0-------3-------|-1-----1-3---1---|-0-------3-------|
*valid only in the key of Fm

 

Verse:
FmShe calls out to the D#man on the sA#mtreet
FmHe can see she’s been cD#rying
FmShe’s got blisters on the D#soles of her A#mfeet
FmShe can’t walk but she’s D#trying

 

Chorus:
FmOh think twD#add9ice, cause it’s anC#maj7other day for
You and me in pD#add9aradise
FmOh think twD#add9ice, cause it’s aC#maj7nother day for you
D#add9You   and   Fmme in D#pa – C#maj7ra – dise   Fm

 

Interlude x2:

   1 2 3 4 5 6 7 8 | 1 2 3 4 5 6 7 8 | 1 2 3 4 5 6 7 8 | 1 2 3 4 5 6 7 8 |
   Fm                D#      A#m       Fm                D#      A#m
A|-3---------------|-1-------1-------|-3---------------|-1-------1-------|
E|-1---------------|-3-1-----1-------|-1---------------|-3-1-------------|
C|-0---------------|-3---3-----------|-0---------------|-3---3---1-------|
G|-1-----1-3---1---|-0-------3-------|-1-----1-3---1---|-0-------3-------|
*valid only in the key of Fm

 

Bridge:
D#    Oh Fmlord, is there D#nothing more anybody G#can do
D#    Oh Fmlord, there must be D#something you can G#say

 

Verse:
FmYou can tell from the D#lines on her fA#mace
FmYou can see that she’s D#been there
FmProbably been moved on from D#every plA#mace
Fm‘Cos she didn’t fit in D#there

 

Chorus:
FmOh think twD#add9ice, cause it’s anC#maj7other day for
You and me in pD#add9aradise
FmOh think twD#add9ice, cause it’s aC#maj7nother day for you
D#add9You   and   Fmme in D#pa – C#maj7ra – dise   Fm

 

Interlude x2:

   1 2 3 4 5 6 7 8 | 1 2 3 4 5 6 7 8 | 1 2 3 4 5 6 7 8 | 1 2 3 4 5 6 7 8 |
   Fm                D#      A#m       Fm                D#      A#m
A|-3---------------|-1-------1-------|-3---------------|-1-------1-------|
E|-1---------------|-3-1-----1-------|-1---------------|-3-1-------------|
C|-0---------------|-3---3-----------|-0---------------|-3---3---1-------|
G|-1-----1-3---1---|-0-------3-------|-1-----1-3---1---|-0-------3-------|
*valid only in the key of Fm

 

Outro:
It’s just aFmnother day for D#you and A#mme in  Fmparadise     D#       A#m
It’s just aFmnother day for D#you and A#mme in  Fmparadise     D#       A#m
It’s just aFmnother day for D#you and A#mme in  Fmparadise     D#       A#m

Just think about it.