Mac DeMarco – My Kind Of Woman Ukulele Chords

   

Voice Range: F#A (1 octave + 4 half tones) – how to use this?

 

Scroll down to see the more specific tabs

 

Intro: F#m

 

Verse:

EO-o-o-o-E7oh     Dmaj7baby
O-o-o-o-Bmoh     Aman       F#m
You’re Emaking E7me cDmaj7razy, really driving Bmme     Amad       F#m
EThat’s E7all     Dmaj7right with me, it’s really Bmno    Afuss        F#m
As Elong asE7 you’re Dmaj7next to me just the two Bmof us    A        F#m

 

Chorus:
You’re Amy,    Bmmy,     C#mmy,      D     my kind of C#mwoman
AMy,      Bmoh       C#mmy,        D    what a C#mgirl
You’re Amy,    Bmmy,    C#mmy,     D     my kind of C#mwoman
And I’m Adown on my Bmhands and knees
C#mBegging you please, Dbaby,   C#mshow me your world

 

F#m

 

Verse:
EO-o-o-o-E7oh      Dmaj7brother, sBmweet – Aheart     F#m
I’m Efeeling E7so     Dmaj7tired, really falling Bma – parAt        F#m
And it Ejust don’t E7make   Dmaj7sense to me, I really Bmdon’t kAnow       F#m
Why Eyou stick E7right Dmaj7next to me wherever BmI         Ago        F#m

 

Chorus:
You’re Amy,    Bmmy,     C#mmy,      D     my kind of C#mwoman
AMy,      Bmoh       C#mmy,        D    what a C#mgirl
You’re Amy,    Bmmy,    C#mmy,     D     my kind of C#mwoman
And I’m Adown on my Bmhands and knees
C#mBegging you please, Dbaby,   C#mshow me your world

 

F#m

 

Picking Patterns:

Intro / Intrlude:

   1 & 2 & 3 & 4 & 5 & 6 & 7 & 8 &
   F#m                     E   E7
A|-0-----------------------7---5---|
E|-2-----------------------4---4---|
C|-1-----------------------4---4---|
G|-2-----------------------4---4---|

Verse:

   1 & 2 & 3 & 4 & 5 & 6 & 7 & 8 &
   Dmaj7                       Bm7
A|-4-------4-------4-------4---2---|
E|-2---2-5-----2-5-----2-5-2---2---|
C|-2-----------------------2---2---|
G|-2-----------------------2---2---|

   1 & 2 & 3 & 4 & 5 & 6 & 7 & 8 &
   A               F#m     E   E7
A|-0-------0-------0-------7---5---|
E|-0-----0-------0-2-------4---4---|
C|-1---1-------1---1-------4---4---|
G|-2---------------2-------4---4---|

Chorus:

   1 & 2 & 3 & 4 & 5 & 6 & 7 & 8 &
   A       Bm      C#m     D
A|-4-------4-------4-------7---7---|
E|-0-----0-2-----2-4-----4-2---2---|
C|-1---1---2---2---4---4---2---2---|
G|-2-------4-------6-------2---2---|

   1 & 2 & 3 & 4 & 5 & 6 & 7 & 8 &
   C#m      
A|-4-------4-------4-------5---5---|
E|-4-----4-------4-------4-4---4---|
C|-4---4-------4-------4---4---4---|
G|-6-----------------------6---6---|