Mac DeMarco – Freaking Out The Neighborhood Ukulele Chords

The original is in the key of G#m. You can put a capo on 1st fret to sound like it.

 

Voice Range: GA# (1 octave + 4 half tones) – how to use this?

 

Intro x2:

   Cm7         Dm7         Gm7         Gm7
A|---3--3--3---0-------0---------------10-8-6-5----|
E|-3--3--3-------1---1---1-1/3-----------------8-6-|
C|-----------------2-------------------------------|
G|-------------------------------------------------|

   Cm7         Dm7         Gm7         Gm7
A|---3--3--3---0-------0---------------5-3-1-0-----|
E|-3--3--3-------1---1---1-1/3-----------------3-1-|
C|-----------------2-------------------------------|
G|-------------------------------------------------|
*valid only in the key of Gm

 

Verse:
A#Sorry,     C#dimmama,     Gm7there are Cm7times I get G#carried awayF
A#Please, don’t C#dimworry,      Gm7next time I’m Bdimhome, I’ll D#still be the Fsame

 

Chorus:
And I Cm7know it’s no Dm7fun       Gm7            Gm7
When Cm7your first Dm7son       Gm7            Gm7
Gets Cm7up to no Dm7good       Gm7            Gm7
Cm7Starts freaking out the Dm7neighborhood       Gm7            Gm7

 

Verse:
A#Really,        C#dimI’m fine,      Gm7never been Cm7better, got no G#job on the lineF
SinA#cerely, don’t C#dimworry,    Gm7same old Bdimboy that you D#hoped you would Ffind

 

Chorus:
And I Cm7know it’s no Dm7fun       Gm7            Gm7
When Cm7your first Dm7son       Gm7            Gm7
Gets Cm7up to no Dm7good       Gm7            Gm7
Cm7Starts freaking out the Dm7neighborhood       Gm7            Gm7