Mac DeMarco – Cooking Up Something Good Ukulele Chords

Voice Range: EG (1 octave + 4 half tones) – how to use this?

 

The song is in 3/4

Intro   x4:

   1   &   2   &   3   &   4   &   5   &   6   &
   G                               C
A|---------------------------------3-3-3-3-3-3-5---|
E|-3----3------3----3------3-------0-0-0-0-0-0-0---|
C|-2----2------2----2------2-------0-0-0-0-0-0-0---|
G|-0----0------0----0------0-------0-0-0-0-0-0-0---|

   1   &   2   &   3   &   4   &   5   &   6   &
   Am                              C
A|-0----0------0----0------0-------3-3-3-3-3-3-5---|
E|-0----0------0----0------0-------0-0-0-0-0-0-0---|
C|-0----0------0----0------0-------0-0-0-0-0-0-0---|
G|-2----2------2----2------2-------0-0-0-0-0-0-0---|
*valid only in the key of G

 

Verse:
GMommy’s in the kitchen C         Amcooking up something goodC
And Gdaddy’s on the sofaC,         Ampride of the neighborhood  C
My Gbrother’s in the ballet,C        Am it seems he’s got it set    C
And GI’ll be up at midnightC         Am with my cigarette

 

Chorus:
GOoh, when D#9life moves this G#maj7slowly         Am
GOoh, just D#9try and let it G#maj7go                 Am
GOoh, when D#9life moves this G#maj7slowly         Am
GOoh, just D#9try and let it G#maj7go                 Am

 

Verse:
GDaddy’s in the basementC                     Am cooking up something fine  C
While Grick’s out on the pavement,C         Amflipping it for dimes    C
If there’s Ganything redeemingC               AmI haven’t seen it yet   C
And GI’m still up at midnightC                Amchewing nicorette     C

 

 

Chorus:
GOoh, when D#9life moves this G#maj7slowly         Am
GOoh, just D#9try and let it G#maj7go                 Am
GOoh, when D#9life moves this G#maj7slowly         Am
GOoh, just D#9try and let it G#maj7go                 Am