Mac DeMarco – Chamber of Reflection Ukulele Chords

 

Voice Range: DG (1 octave + 6 half tones) – how to use this?

 

Intro x2:

   1 & 2 & 3 & 4 & | 1 & 2 & 3 & 4 & | 1 & 2 & 3 & 4 & | 1 & 2 & 3 & 4 & |
   Am7               Bm7               Cmaj7             Cmaj7
A|-0-------10--7---|-2----3p2--------|-2-------2---3---|-5-----2---------|
E|-0---------------|-2-------5-------|-0---------------|---------2-------|
C|-0---------------|-2---------------|-0---------------|-----------------|
G|-0---------------|-2---------------|-0---------------|-----------------|

   1 & 2 & 3 & 4 & | 1 & 2 & 3 & 4 & | 1 & 2 & 3 & 4 & | 1 & 2 & 3 & 4 & |
   Am7               Bm7               Em                            Em7
A|-----------------|-2---------------|-2---------------|-------------2---|
E|-2----3p2-0------|-2---------------|-3---------------|-------------0---|
C|-0---------------|-2-------------2-|-4---------------|-------------2---|
G|-0---------------|-2---------------|-0---------------|-------------0---|
*valid only in the key of Em

 

Verse:
Am7     Spend some Bm7time away
Cmaj7     Getting ready for the Am7day
You’re born aBm7gain         Em         Em7

 

Am7     Spend some Bm7time alone
Cmaj7    Understand that soon you’ll Am7run
With better Bm7men, aEmlone againEm7

 

Chorus:
AlAm7one agaiBm7n         AlEmone again   Em7
AlAm7one agaiBm7n         AlEmone   Em7

 

Interlude x2:

   1 & 2 & 3 & 4 & | 1 & 2 & 3 & 4 & | 1 & 2 & 3 & 4 & | 1 & 2 & 3 & 4 & |
   Am7               Bm7               Cmaj7             Cmaj7
A|-0-------10--8---|-2----3p2--------|-2-------2---3---|-5-----2---------|
E|-0---------------|-2-------5-------|-0---------------|---------2-------|
C|-0---------------|-2---------------|-0---------------|-----------------|
G|-0---------------|-2---------------|-0---------------|-----------------|

   1 & 2 & 3 & 4 & | 1 & 2 & 3 & 4 & | 1 & 2 & 3 & 4 & | 1 & 2 & 3 & 4 & |
   Am7               Bm7               Em                            Em7
A|-----------------|-2---------------|-2---------------|-------------2---|
E|-2----3p2-0------|-2---------------|-3---------------|-------------0---|
C|-0---------------|-2-------------2-|-4---------------|-------------2---|
G|-0---------------|-2---------------|-0---------------|-------------0---|
*valid only in the key of Em

 

 

Verse:
Am7    No use lBm7ooking out
Cmaj7   It’s within that brings that
Am7Lonely feelBm7ing        Em          Em7

 

Am7     UndersBm7tand that when you
Cmaj7Leave here you’ll be clear
AAm7mong the better Bm7men
AEmlone again   Em7

 

Chorus:
AlAm7one agaiBm7n         AlEmone again   Em7
AlAm7one agaiBm7n         AlEmone   Em7

 

AlAm7one agaiBm7n         AlEmone again   Em7
AlAm7one agaiBm7n         AlEmone   Em7

 

Outro (repeat and fade):

   1 & 2 & 3 & 4 & | 1 & 2 & 3 & 4 & | 1 & 2 & 3 & 4 & | 1 & 2 & 3 & 4 & |
   Am7               Bm7               Cmaj7             Cmaj7
A|-0-------10--8---|-2----3p2--------|-2-------2---3---|-5-----2---------|
E|-0---------------|-2-------5-------|-0---------------|---------2-------|
C|-0---------------|-2---------------|-0---------------|-----------------|
G|-0---------------|-2---------------|-0---------------|-----------------|

   1 & 2 & 3 & 4 & | 1 & 2 & 3 & 4 & | 1 & 2 & 3 & 4 & | 1 & 2 & 3 & 4 & |
   Am7               Bm7               Em                            Em7
A|-----------------|-2---------------|-2---------------|-------------2---|
E|-2----3p2-0------|-2---------------|-3---------------|-------------0---|
C|-0---------------|-2-------------2-|-4---------------|-------------2---|
G|-0---------------|-2---------------|-0---------------|-------------0---|
*valid only in the key of Em