Mac DeMarco – Blue Boy Ukulele Chords

Voice Range: A#A# (1 octave + 1 half tone) – how to use this?

 

Intro:

   1 & 2 & 3 & 4 & | 1 & 2 & 3 & 4 & | 1 & 2 & 3 & 4 & | 1 & 2 & 3 & 4 & |
   A#6               F7                Cm               D#       Fadd9
A|---1-------------|-----------5-----|-3---------------|---1-------3-----|
E|-----------------|-------5/6-----5-|----------------1/3------3/5-------|
C|-2---------------|-----------------|-----------------|-----------------|
G|-----------------|-----------------|-----------------|-----------------|
*valid only in the key of A#

 

Verse:
A#6Blue boy,  F7         worried about the Cmworld’s eyesD#        Fadd9
A#6Worried    F7          every time the Cmsun shines   D#        Fadd9
A#6Worried aF7bout his hCmaircut       D#        Fadd9
A#6Calm down, sF7weetheart, grCmow up       D#        Fadd9

 

Chorus:
Blue boyA#6            Cm           Gm            A#7sus4
Blue boyA#6            Cm           Gm            A#7sus4
Blue boyA#6            Cm           Gm            A#7sus4
Blue boyA#6            Cm           Gm            A#7sus4

 

   1 & 2 & 3 & 4 & | 1 & 2 & 3 & 4 & | 1 & 2 & 3 & 4 & | 1 & 2 & 3 & 4 & |
   A#6               Cm                Gm                A#7sus4
A|-1---------------|-3---------------|-6---------------|-3---------------|
E|-1---------------|-3---------------|-----------------|-----1-----------|
C|-2---------------|-3-----------3/5-|-------------3---|-----------------|
G|-----------------|-----------------|-----------------|-----------------|
*valid only in the key of A#

 

Verse:
A#6Blue boy,   F7       older than the Cmworld knows    D#            Fadd9
A#6Honey,    F7        that’s the way that Cmlife goes    D#        Fadd9
A#6No use acF7ting      sCmo tough    D#        Fadd9
A#6Calm down, sF7weetheart, grCmow up       D#        Fadd9

 

Chorus:
Blue boyA#6            Cm           Gm            A#7sus4
Blue boyA#6            Cm           Gm            A#7sus4
Blue boyA#6            Cm           Gm            A#7sus4
Blue boyA#6            Cm           Gm            A#7sus4