Joy Division – Love Will Tear Us Apart Ukulele Chords

Voice Range: AG (11 half tones) – how to use this?

 

Intro:
A7   x8

   Em           D            Bm           A
A|-2----------|-0----------|-2--------5-|-0----------|
E|-3----------|-2--3-2-----|-2----------|-0----------|
C|-4----------|-2------4-2-|-2----------|-1----------|
G|-0----------|-2----------|-4----------|-2----------|     x2
*valid only in the key of Em

 

Verse:

When Emroutine bites hard D        and amBmbitions are Alow,
And reEmsentment rides high D      but emBmotions won’t Agrow,
And we’re Emchanging our ways D       taking Bmdifferent rAoads.

 

Chorus:
Then Emlove, Dlove will tear us a-Bmpart aAgain.
EmLove, Dlove will tear us a-Bmpart aAgain.

 

Interlude:

   Em           D            Bm           A
A|-2----------|-0----------|-2--------5-|-0----------|
E|-3----------|-2--3-2-----|-2----------|-0----------|
C|-4----------|-2------4-2-|-2----------|-1----------|
G|-0----------|-2----------|-4----------|-2----------|
*valid only in the key of Em

 

Verse:
Why is the Embedroom so cold? D      You’ve tBmurned away on your Aside.
Is my Emtiming that flawed? D      Our Bmrespect runs so Adry.
Yet there’s Emstill this appeal D      That we’ve Bmkept through our Alives.

 

Chorus:
But Emlove, Dlove will tear us a-Bmpart aAgain.
EmLove, Dlove will tear us a-Bmpart aAgain.

 

Interlude:

A7   x8

   Em           D            Bm           A
A|-2----------|-0----------|-2--------5-|-0----------|
E|-3----------|-2--3-2-----|-2----------|-0----------|
C|-4----------|-2------4-2-|-2----------|-1----------|
G|-0----------|-2----------|-4----------|-2----------|     x2
*valid only in the key of Em

 

Verse:
You cry Emout in your sleep D      all my faBmilings expoAsed.
And there’s a Emtaste in my mouth D     as despeBmration takes Ahold.
Just that Emsomething so good D        just can’t fBmunction no Amore.

 

Chorus:
But Emlove, Dlove will tear us a-Bmpart aAgain.
EmLove, Dlove will tear us a-Bmpart aAgain.
EmLove, Dlove will tear us a-Bmpart aAgain.
EmLove, Dlove will tear us a-Bmpart aAgain.

 

Outro:
A7  x4
D    x12