Gorillaz – El Manana Ukulele Chords

 

Voice Range: FC (1 octave + 8 half tones) – how to use this?

 

Intro:   Am,   G,   F,   Em     x2

 

Verse:
AmSummer don’t Gknow me no Fmore
Eager Emman, that’s Amall          Am
AmSummer don’t Gknow me
He Fjust let me Emlove in myAmself       Am

 

Pre-Chorus:
‘Cause I Bmdo know, BmLord,
FFrom you tFhat
Just Bmdied, yeaDmh

 

Chorus:
Am          I Gsaw that Fday,       Em
Am           GLost my Fmind      Em
Am           GLord, I’m Ffine       Em
Am           Maybe in Gtime   You’ll F wantEm to be mine

 

Verse:
AmDon’t stop the Gbuck when it Fcomes
It’s the dEmawn, you’ll sAmee         Am
AmMoney won’t Gget there
Ten Fyears passed toEmnight  You’ll Amflee        Am

 

Pre-Chorus:
If you Bmdo      tBmhat,
I’ll Fbe someFone
To Bmfind     yDmou

 

Chorus:
Am          I Gsaw that Fday,       Em
Am           GLost my Fmind      Em
Am           GLord, I’m Ffine       Em
Am           Maybe in Gtime   You’ll F wantEm to be mine

 

Solo:

   1  2  3  4  5  6  7  8  | 1  2  3  4  5  6  7  8  |
   Am          G             F           Em  
A|-15----15----14----14----|-12--12-10-8-7-----7-----|
E|----12----12----12----12-|---12-----------8-----8--|
C|-------------------------|-------------------------|
G|-------------------------|-------------------------|

   1  2  3  4  5  6  7  8  | 1  2  3  4  5  6  7  8  |
   Am          G             F           Em
A|-7-----7-----7-----7-----|---------12-10--------14-|
E|----8-----8-----7-----7--|-8----------------12-----|
C|-------------------------|---9-7-9-----------------|
G|-------------------------|-------------------------|
*valid only in the key of Am

 

Outro:
Am          I Gsaw that Fday,       Em
Am           GLost my Fmind      Em
Am           GLord, I’m Ffine       Em
Am           Maybe in Gtime   You’ll F wantEm to be mine
Am           Maybe in Gtime   You’ll F wantEm to be mine
Am           Maybe in Gtime   You’ll F wantEm to be mine
Am           Maybe in Gtime   You’ll F wantEm to be mine
Am           Maybe in Gtime   You’ll F wantEm to be miAmne