Eric Clapton – Wonderful Tonight Ukulele Chords

Voice Range: DE (1 Octave + 3 half tones) – how to use this?

 

Intro:

   G                 D                 C                 D   G   D7
   1 & 2 & 3 & 4 & | 1 & 2 & 3 & 4 & | 1 & 2 & 3 & 4 & | 1 & 2 & 3 & 4 & |
A|-5-------------0-|-0---------------|-3---------------|-0---2---3---5/7-|
E|-3-------5b7-3---|-2-------5b7-3-0-|-0-------5b7-3---|-2---3---2-------|
C|-2-----2---------|-2-----2---------|-0-----2---------|-2---2---2-------|
G|-0---------------|-2---------------|-0---------------|-2---0---2-------|
*valid only in the key of G

 

Verse:
G   It’s late in the Devening;C she’s wondering what clDothes to wear
G   She puts on her maDke-up  C and brushes her Dlong blonde hair
C   And then she asDks me,   G “Do I Bm7look all rigEmht?”
And I say, “CYes, you look Dwonderful tonGight”

 

Interlude:

   G                 D                 C                 D   G   D7
   1 & 2 & 3 & 4 & | 1 & 2 & 3 & 4 & | 1 & 2 & 3 & 4 & | 1 & 2 & 3 & 4 & |
A|-5-------------0-|-0---------------|-3---------------|-0---2---3---5/7-|
E|-3-------5b7-3---|-2-------5b7-3-0-|-0-------5b7-3---|-2---3---2-------|
C|-2-----2---------|-2-----2---------|-0-----2---------|-2---2---2-------|
G|-0---------------|-2---------------|-0---------------|-2---0---2-------|
*valid only in the key of G

 

Verse:
G   We go to a pDarty    C  and everyone tuDrns to see
G   This beautiful Dlady    C   that’s walking arDound with me
C   And then she aDsks me,   G  “Do you fBm7eel all rEmight?”
And I say, “CYes, I feel Dwonderful toGnight”    G

 

Bridge:
I feel Cwonderful beDcause I see the Glove light iBm7n your eyEmes
And the Cwonder of it Dall is that you Cjust don’t reaDlize
How much I Glove you!

 

Interlude:

   G                 D                 C                 D   G   D7
   1 & 2 & 3 & 4 & | 1 & 2 & 3 & 4 & | 1 & 2 & 3 & 4 & | 1 & 2 & 3 & 4 & |
A|-5-------------0-|-0---------------|-3---------------|-0---2---3---5/7-|
E|-3-------5b7-3---|-2-------5b7-3-0-|-0-------5b7-3---|-2---3---2-------|
C|-2-----2---------|-2-----2---------|-0-----2---------|-2---2---2-------|
G|-0---------------|-2---------------|-0---------------|-2---0---2-------|
*valid only in the key of G

 

Verse:
G   It’s time to go hDome now and  C   I’ve got an aching Dhead
G   So I give her the Dcar keys  C   and she helps me to Dbed
C   And then I Dtell her,   G  as I tBm7urn out the Emlight
I say, “My dCarling, you were Dwonderful toGnight   Bm7           Em
Oh my Cdarling, you were wDonderful toGnight”

 

Outro:

   G                 D                 C                 D   G   D7
   1 & 2 & 3 & 4 & | 1 & 2 & 3 & 4 & | 1 & 2 & 3 & 4 & | 1 & 2 & 3 & 4 & |
A|-5-------------0-|-0---------------|-3---------------|-0---2---3---5/7-|
E|-3-------5b7-3---|-2-------5b7-3-0-|-0-------5b7-3---|-2---3---2-------|
C|-2-----2---------|-2-----2---------|-0-----2---------|-2---2---2-------|
G|-0---------------|-2---------------|-0---------------|-2---0---2-------|
*valid only in the key of G