Elton John – Tiny Dancer Ukulele Chords

        

Voice Range: GC (1 octave + 6 half tone) – how to use this?

 

Intro:

   C                 F
A|-------7---5-----|-3-----3-----3/5-|
E|-----0-----------|-1---1-----1-----|
C|---0-------------|-0-0-------------|
G|-0---------------|-2---------------|
*valid only in the key of Am

 

Verse:
CBlue jean Fbaby,     CL.A.     Flady
C           CSeamstress for the Fband       F        G
CPretty Feyed, Cpirate sFmile
CYou’ll Cmarry a musicF man        F        G

 

Bridge:
FBallerEm7ina,     Am7you must have Dseen her
Dm         E7Dancing in the Amsand        G7
CAnd now she’s Fin me, Calways wFith me
CTiny dCancer in my Ghand     F        Em7              Dm

 

Interlude:

   C                 F
A|-------7---5-----|-3-----3-----3/5-|
E|-----0-----------|-1---1-----1-----|
C|---0-------------|-0-0-------------|
G|-0---------------|-2---------------|
*valid only in the key of Am

 

Verse:
CJesus Ffreaks     Cout on the Fstreet
CHanding tCickets out for FGod      F       G
CTurning Fback       Cshe just laFughs
CThe bouleCvard is not that Fbad     F       G

 

Bridge:
FPiano Em7man        Am7he makes his sDtand
DmIn the E7auditoriAmum     G7
CLooking Fon        Cshe sings the Fsongs
CThe words she Cknows the tune she Ghums   F        Em7             Dm

 

Interlude:

   C                 F
A|-------7---5-----|-3-----3-----3/5-|
E|-----0-----------|-1---1-----1-----|
C|---0-------------|-0-0-------------|
G|-0---------------|-2---------------|
*valid only in the key of Am

 

Pre-Chorus:
G#But oh how it A#feels so real
GmLying here with Cmno one near
G#Only youG# and you can A#hear me
A#When I say Gsoftly G7slowly

 

Chorus:
FHold me Ccloser tiny Dmdancer        Dm        Em7
FCount the Cheadlights on the Ghighway       G        Em7
FLay me Cdown in sheets of Dmlinen           Dm         Em7
FYou had a Cbusy day Gtoday      G       Em7

 

FHold me Ccloser tiny Dmdancer        Dm        Em7
FCount the Cheadlights on the Ghighway       G        Em7
FLay me Cdown in sheets of Dmlinen           Dm         Em7
FYou had a Cbusy day Gtoday      G

 

F,   F,   G,   G,    F,   F

 

Interlude:

   C                 F
A|-------7---5-----|-3-----3-----3/5-|
E|-----0-----------|-1---1-----1-----|
C|---0-------------|-0-0-------------|
G|-0---------------|-2---------------|
*valid only in the key of Am

 

Verse:
CBlue jean Fbaby,     CL.A.     Flady
C           CSeamstress for the Fband       F        G
CPretty Feyed, Cpirate sFmile
CYou’ll Cmarry a musicF man        F        G

 

Bridge:
FBallerEm7ina,     Am7you must have Dseen her
Dm         E7Dancing in the Amsand        G7
CAnd now she’s Fin me, Calways wFith me
CTiny dCancer in my Ghand     F        Em7              Dm

 

Interlude:

   C                 F
A|-------7---5-----|-3-----3-----3/5-|
E|-----0-----------|-1---1-----1-----|
C|---0-------------|-0-0-------------|
G|-0---------------|-2---------------|
*valid only in the key of Am

 

Pre-Chorus:
G#But oh how it A#feels so real
GmLying here with Cmno one near
G#Only youG# and you can A#hear me
A#When I say Gsoftly G7slowly

 

Chorus:
FHold me Ccloser tiny Dmdancer        Dm        Em7
FCount the Cheadlights on the Ghighway       G        Em7
FLay me Cdown in sheets of Dmlinen           Dm         Em7
FYou had a Cbusy day Gtoday      G       Em7

 

FHold me Ccloser tiny Dmdancer        Dm        Em7
FCount the Cheadlights on the Ghighway       G        Em7
FLay me Cdown in sheets of Dmlinen           Dm         Em7
FYou had a Cbusy day Gtoday      G

 

F,   F

 

Outro:

   C                 F
A|-------7---5-----|-3-----3-----3/5-|
E|-----0-----------|-1---1-----1-----|
C|---0-------------|-0-0-------------|
G|-0---------------|-2---------------|
*valid only in the key of Am