Edward Sharpe & The Magnetic Zeros – Janglin Ukulele Chords

  

Voice Range: F#B (1 octave + 6 half tone) – how to use this?

 

Intro:

   D       F#m       Bm
   1 & 2 & 3 & 4 & | 1 & 2 & 3 & 4 & |
A|-----0-------0---|-2---2-4-2-------|
E|-----2-------2---|-2---------5-2---|
C|-2-------1-------|-2-------------4-|
G|-----------------|-4---------------|
*valid only in the key of D

 

Verse:
Well our Dmama’sF#m they    Bmleft us
And our Ddaddy’s F#mtook a    Bmride
And we Dwalked out F#mof the    Bmcastle
And we Dheld our F#mhead up Bmhigh
Well we Donce werF#me the       BmJesters
In your DKingdom F#mby    the    Bmsea
And now we’re Dout  to   F#mbe   the   Bmmasters
For to Dset our F#mspirits Bmfree – set Afree

 

Chorus:
We Want to Gfeel    Dya!
AWe     Bmdon’t mean to Gkill     Dya!
AWe      Bmcome back to GHeal      Dya –    AJanglin   Bmsoul
AEdward and the Magnetic Zeros

 

Interlude:

   D       F#m       Bm
   1 & 2 & 3 & 4 & | 1 & 2 & 3 & 4 & |
A|-----0-------0---|-2---2-4-2-------|
E|-----2-------2---|-2---------5-2---|
C|-2-------1-------|-2-------------4-|
G|-----------------|-4---------------|
*valid only in the key of D

 

Verse:
Well your DwartimF#me     is    BmFunny
Your Dguns don’t F#mbother      Bmme
I said we’re Dout to F#mprove the Bmtruth of
The Dman from F#mGalilei    Bm
Well your Dlaws arF#me    for    BmDummies, yes
Your DinstitF#mutions Bmdead
I say we’re Dout to F#mblow the Bmtrumpet
To Dwake you F#mall from Bmbed – from Abed

 

Chorus:
We Want to Gfeel    Dya!
AWe     Bmdon’t mean to Gkill     Dya!
AWe      Bmcome back to GHeal      Dya –    AJanglin   Bmsoul
AEdward and the Magnetic Zeros

 

Bridge:
We Bmcarry the mail
We Bmcarry it home
We Emcarry the Mail now
We Bmcarry it home
BmScare up your Letters
BmGive us your Tails
EmBlowing like Whale now to
BmMagnetic Ears
WOW!     A

 

Chorus:
We Want to Gfeel    Dya!
AWe     Bmdon’t mean to Gkill     Dya!
AWe      Bmcome back to GHeal      Dya –    AJanglin   Bmsoul
AEdward and the Magnetic Zeros

 

Outro:

   D       F#m       Bm
   1 & 2 & 3 & 4 & | 1 & 2 & 3 & 4 & |
A|-----0-------0---|-2---2-4-2-------|
E|-----2-------2---|-2---------5-2---|
C|-2-------1-------|-2-------------4-|
G|-----------------|-4---------------|
*valid only in the key of D