David Bowie – Heroes Ukulele Chords

Voice Range: F#B (1 octave + 6 half tones) – how to use this?

 

Scroll down to see the picking for the Bridge

 

Intro:

   1  2  3  4  5  6  7  8  1  2  3  4  5  6  7  8
   D                         Gsus2   
A|-0-----------------------2-0---------2--3--4--5-|
E|-2-------------------------3---------3--3--3--3-|
C|-2----------------------2--2---------2--2--2--2-|
G|-2-------------------------0---------0--0--0--0-|
*valid only in the key of D

 

Verse:
DI, I wish you could Gsus2swim
Like the Ddolphins, like dolphins can Gsus2swim

 

Bridge:
Though Cnothing, nothing will keep us toDgether
We can Ambeat them, Em   for ever and Dever
Oh we can be CHeroes,   G   just for one Dday

 

Interlude:

   1  2  3  4  5  6  7  8  1  2  3  4  5  6  7  8
   D                         Gsus2   
A|-0-----------------------2-0---------2--3--4--5-|
E|-2-------------------------3---------3--3--3--3-|
C|-2----------------------2--2---------2--2--2--2-|
G|-2-------------------------0---------0--0--0--0-|
*valid only in the key of D

 

Verse:
DI, I will be Gsus2king
And Dyou, you will be Gsus2queen

 

Bridge:
Though Cnothing will drive them Daway
We can be AmHeroes,     Em     just for one Dday
We can be Cus,     G     just for one Dday

 

Verse:
DI, I can reGsus2member (I remember)
DStanding by the Gsus2wall (by the wall)
And the Dguns shot Gsus2above our heads (over our heads)
And we Dkissed, as though nothing could Gsus2fall (nothing could fall)

 

Bridge:
And the Cshame was on the Dother side
Oh we can Ambeat them,    Em   for ever and Dever
Then we could be CHeroes,    G      just for one Dday

 

Outro:
D    We can be Gsus2Heroes
D    We can be Gsus2Heroes
We can be Gsus2Heroes   just for one Dday

 

 

Bridge’s Picking:

       1 & 2 & 3 & 4 & 5 & 6 & 7 & 8 & 1 & 2 & 3 & 4 & 5 & 6 & 7 & 8
       C               C               D               D
A|-----3---------------3---------------0-----------------------------|
E|-3-2-0---2-------3-2-0---2-------3-2-0---2-------------------------|
C|-----0-----2---------0-----2---------2-----2-----------------------|
G|-----0---------------0---------------2-----------------------------|

       1 & 2 & 3 & 4 & 5 & 6 & 7 & 8 & 1 & 2 & 3 & 4 & 5 & 6 & 7 & 8
       Am              Em              D               D
A|-----0---------------2---------------0-----------------------------|
E|-3-2-0---2-0-----3-2-3---2-------3-2-0---2-------------------------|
C|-----0---------------4---------------2-----2-----------------------|
G|-----2---------------0-----4---------2-----------------------------|
*valid only in the key of D