Charles Wright – Express Yourself Ukulele Chords

Voice Range: A#D# (1 octave + 7 half tone) – how to use this?

    D#  G#  A#  G#7 A#7
 A|-3---3---5---3---5---|
 E|-3---4---6---4---6---|
 C|-3---3---5---6---8---|
 G|-3---5---7---5---7---|
    1  &  2  &  3  &  4  &  5  &  6  &  7  &  8  &  
    D#                      G#          A#
 A|-6--6--------------------3-----------5----------|
 E|-3-----------3h4---6-3---4-----4-3---6----------|
 C|-3-----3--------------3--3---3-----5-5----------|
 G|-3-----------------------5-----------7----------|

 

Express Yourself! D#6        D#6        G#        A#
Express Yourself! D#6        D#6        G#        A#
You don’t D#6ever need D#6help from G#nobody A#else.
D#6All you got to D#6do now:    G#        A#
Express Yourself! D#6        D#6        G#        A#
What ever you D#6do,        D#6        G#        A#
Do it good. D#6        D#6        G#        A#
What ever you D#6do,        D#6        G#        A#
Do it good. D#6        D#6    All right…    G#        A#

 

It’s G#7not what you look like, when you’re G#7doin´ what you’re doin´.
It’s what you’re G#7doin´ when you’re doin´ what you A#7look like you’re doin´!

 

Express Yourself! D#6        D#6        G#        A#
Express Yourself! D#6        D#6        G#        A#
They’re doin´it on the D#6moon, yeD#6ah…        G#        A#
In the jungle too.D#6        D#6     Alright…   G#        A#
Everybody on the floor, now.D#6        D#6
G#Jumpin´ likA#e a kangaroo.D#6        D#6
So let the G#horns do the thing they A#do, yo…

 

   1  &  2  &  3  &  4  &  5  &  6  &  7  &  8  &  
A|---6-6-6-----6--9----------6-6-6-----------------|
E|---------8------------------------8--6-----------|
C|-------------------------------------------------|
G|-------------------------------------------------|
   1  &  2  &  3  &  4  &  5  &  6  &  7  &  8  &  
A|---9-9-9-----15-9--------6--6-3-6-3--------------|
E|---------11-------------------------6------------|
C|--------------------------------------3----------|
G|-------------------------------------------------|
   1  &  2  &  3  &  4  &  5  &  6  &  7  &  8  &  
A|---6-6-6-----6--9----------6-6-6-----------------|
E|---------8------------------------8--6-----------|
C|-------------------------------------------------|
G|-------------------------------------------------|
   1  &  2  &  3  &  4  &  5  &  6  &  7  &  8  &  
A|---9-9-9-----15-9--------6--6-3-6-3---4-----------|
E|---------11--------11-8-------------6---6-4--6-4-2|
C|--------------------------------------------------|
G|--------------------------------------------------|

 

Some G#7people have everything, and G#7other people don’t.
But G#7everything don’t mean a thing if it A#7ain´t the thing you want.
Express Yourself! D#6        D#6        G#        A#
Express Yourself! D#6        D#6        G#        A#
O, do it! D#6        D#6        O, do it.G#        A#
Do it to it.D#6        D#6        Go on and do it.G#        A#
Yo, do it.D#6        D#6        Give.G#        A#
Express Yourself! D#6        D#6        G#        A#
Express Yourself! D#6        D#6        G#        A#