Boy Pablo – Feeling Lonely Ukulele Chords

    

Voice Range: BA (1 octave + 11 half tones) – how to use this?

 

Intro:

 | 1  &  2  &  3  &  4  & | 1  &  2  &  3  &  4  & |
   F#m            F#m7      B7             E9   x2
 | 1  &  2  &  3  &  4  & | 1  &  2  &  3  &  4  & |
   F#m            F#m7      B7             E9
A|-7h9---------------------------------------------|
E|-----7h9-5h7--2h5--0h2-------2h5-2h5--5/7-5------|
C|------------------------1h3----------------------|
G|-------------------------------------------------|    x4

 

Verse:
Dmaj7I woke up this morning
Amaj7Feeling lonely
Dmaj7You were gone, and my cellphone Amaj7too
F#m7But what is this feeling?
E7Haunting inside my head
Dmaj7Feels like a heart attack
E7Oh oh, woah

 

Interlude x2:

 | 1  &  2  &  3  &  4  & | 1  &  2  &  3  &  4  & |
   F#m            F#m7      B7             E9
A|-7h9---------------------------------------------|
E|-----7h9-5h7--2h5--0h2-------2h5-2h5--5/7-5------|
C|------------------------1h3----------------------|
G|-------------------------------------------------|

 

Pre-Chorus:
Dmaj7I miss you so bad
Amaj7A thought of you makes me sDmaj7ad
I’m going E7mad (no, I’m not)
Oh oh

 

Chorus:
F#mCan’t hF#m7elp it, I jB7ust miss yoE9u
F#m   How diF#m7d     I      lB7ose you noE9w agaDmaj7in?
F#mCan’t hF#m7elp it, I jB7ust miss yoE9u
F#m   Why diF#m7d     I      lB7ose you noE9w agaDmaj7in?
Woo!

 

Interlude x2:

 | 1  &  2  &  3  &  4  & | 1  &  2  &  3  &  4  & |
   F#m            F#m7      B7             E9
A|-7h9---------------------------------------------|
E|-----7h9-5h7--2h5--0h2-------2h5-2h5--5/7-5------|
C|------------------------1h3----------------------|
G|-------------------------------------------------|

 

Verse:
Dmaj7Parapara, feeling lonely
Amaj7Parapara
Dmaj7Parapara, feeling lonely
Amaj7Parapara
F#m7You were gone and my cellphone E7too
Dmaj7You were gone and my cellphoneE7 too

 

A|-7h9---------------------------------------------|
E|-----7h9-5h7--2h5--0h2-------2h5-2h5--5/7-5------|
C|------------------------1h3----------------------|
G|-------------------------------------------------|

 

Chorus:
F#mCan’t hF#m7elp it, I jB7ust miss yoE9u
F#m   How diF#m7d     I      lB7ose you noE9w agaDmaj7in?
F#mCan’t hF#m7elp it, I jB7ust miss yoE9u
F#m   Why diF#m7d     I      lB7ose you noE9w agaDmaj7in? (feeling lonely)

 

Outro x4:

 | 1  &  2  &  3  &  4  & | 1  &  2  &  3  &  4  & |
   F#m            F#m7      B7             E9
A|-7h9---------------------------------------------|
E|-----7h9-5h7--2h5--0h2-------2h5-2h5--5/7-5------|
C|------------------------1h3----------------------|
G|-------------------------------------------------|